Visit Everything Musical Tablature for more tab!

This bourrée is a simple but beautiful song, and probably one that every guitarist should learn to play.

Bourrée from Suite No. 1 for Lute
by J. S. Bach.
Transcribed for guitar, standard tuning, common (4/4) time. This song is in the public domain.
||-------------0-2-|-3---2-0-----0-2-|---------0-------
||-----------------|---------4-------|-0---2-4-----3-1-
||-----------------|-----------------|-----------------
||-----------------|-----------------|-----------------
||-----------------|-----0---2---0---|-----------------
||-------------3-2-|-0---------------|-3---2---0---2---


   -----------------|-------------0-2-|-3---2-0-----0-2-
   -0---------------|-0---------------|---------4-------
   -----2-0-----0-2-|---2-0-----------|-----------------
   ---------4-------|-------4-2-------|-----------------
   -----0---2---0---|-----2-----------|-----0---2---0---
   -3---------------|-3-------0-2-3-2-|-0---------------


   ---------0-------|-----------------|------------------||
   -0---2-4-----3-1-|-0---------------|-----------------.||
   -----------------|-----2-0-------0-|-0----------------||
   -----------------|---------4---0---|-0----------------||
   -----------------|-----3---5-------|-2---------------.||
   -3---2---0---2---|-3---------------|-3----------------||


||------------------|-------------3---|-0---------------
||.-------------0---|-3-----1-0-----3-|-------3-1---0---
||----------------0-|-----2-----------|-----4---------2-
||------------------|-----0-----------|-------------0---
||.-----------------|-------------2---|-3-------0-------
||--------------3---|-2-------3-------|-----4-----------


   -----------------|-----------------|-----3---0-------
   -------0-1---0---|-------------3---|-0-----3-------3-
   -1---2---------2-|-2-------------2-|-------------4---
   -2-------2-------|-------------0---|-----------------
   -----0-----------|-0-2-0-----------|-----2---3-------
   -------------0---|-------3-2-------|-3-----------4---


   -----5---2-----0-|-----------------|-------------7---
   -1-----5-----2---|-3---2-0-------0-|-0-------------7-
   -----------------|---------3-------|-----------------
   ---------0-------|-----2---4-------|-----------------
   -0---4-------1---|-2---------------|-2-1-2-4-6-------
   -----------------|-------------2---|-------------7---


   -4---2-0-5---0-3-|-2---0---3-----1-|-0---5-0-2-----0-
   -----------------|-------3-----3---|-------------2---
   -----------------|-----------------|-----------------
   -2---0-----------|-0---------------|-----------------
   ---------4---0---|-----3---2-------|-3---2---0-------
   -----------------|-------------3---|-------------2---


   -------------0---|-----------------|-----------------
   -4---0---------0-|-1---3---0---1---|-----------------
   -----------------|-------2-------0-|-2---4---0-------
   -----------------|---2-4-----1-2---|-------4-----4-2-
   -2-----3-2-0-----|-0---------------|---4-6-------0---
   -------------4---|---------3-------|-2-------0-------


   -----------------|-----------------||
   -----------------|----------------.||
   -----------------|-----------------||
   -1---2-4-5---4-2-|-2---------------||
   -2---0---2-------|----------------.||
   -----------------|-0---------------||

Log in or registerto write something here or to contact authors.