One of the nine playable characters in Final Fantasy 7, although probably the least important one. Having him is optional, and I never would have known he existed if I hadn't looked at the game box, got confused at the fact that it claimed there were nine characters, and checked the FAQ to find out whom I'd missed. Anyway, getting to the point, henceforth follows the tablature to the song that has Vincent's name attached to it, as it's the music plays in the background when you meet him in the Shinra Mansion basement.

The Nightmare is Beginning (Vincent)
By Nobuo Uematsu, from the soundtrack to Final Fantasy 7
(probably copyrighted by SquareSoft)


|-------1-----1----|-3-----1-----1----|-------1-----1----|-3-----1-----1----|
|---2-------2-----2|-----2-----2-----2|---1-------1-----1|-----1-----1-----1|
|-----2---2-----2--|---2-----2-----2--|-----2---2-----2--|---2-----2-----2--|
|-0----------------|------------------|-0----------------|------------------|
|------------------|------------------|------------------|------------------|
|------------------|------------------|------------------|------------------|
(fingerstyle, let ring throughout)

|-------1-----1----|-3-----1-----1----|-------3----------|0------------3----|
|---0-------0-----0|-----0-----0-----0|-------------6----|-------6----------|
|-----2---2-----2--|---2-----2-----2--|---3-------3-----3|-----3-----3-----3|
|-0----------------|------------------|-----7---7-----7--|---7-----7-----7--|
|------------------|------------------|-5----------------|------------------|
|------------------|------------------|------------------|------------------|


|-------1-----1----|-3-----1-----1----|-------1-----1----|-3-----1-----1----|
|---2-------2-----2|-----2-----2-----2|---1-------1-----1|-----1-----1-----1|
|-----2---2-----2--|---2-----2-----2--|-----2---2-----2--|---2-----2-----2--|
|-0----------------|------------------|-0----------------|------------------|
|------------------|------------------|------------------|------------------|
|------------------|------------------|------------------|------------------|


|-------1-----1----|-3-----1-----1----|---0--------|
|---0-------0-----0|-----0-----0-----0|------------|
|-----2---2-----2--|---2-----2-----2--|---3--------|
|-0----------------|------------------|--7---------|
|------------------|------------------|-5----------|
|------------------|------------------|------------|
                                       (quick arpeggio - fermata)

|------------------|------------------|------------------|------------------|
|-------2-----2----|-------2-----2----|-------2-----2----|-------2-----2----|
|-----5---5-----5--|-----4---4-----4--|-----3---3-----3--|-----4---4-----4--|
|---4-------4-----4|---4-------4-----4|---4-------4-----4|---4-------4-----4|
|-5----------------|-5----------------|-5----------------|-5----------------|
|------------------|------------------|------------------|------------------|


|------------------|------------------|------------------|------------------|
|-------2-----2----|-------2-----2----|-------2-----2----|-------2-----2----|
|-----5---5-----5--|-----4---4-----4--|-----3---3-----3--|-----4---4-----4--|
|---4-------4-----4|---4-------4-----4|---4-------4-----4|---4-------4-----4|
|-5----------------|-5----------------|-5----------------|-5----------------|
|------------------|------------------|------------------|------------------|



|-5-----5-----5----|-8-----6-----5----|-3-----3-----3----|-3-----3-----3----|
|------------------|------------------|---3-----3-----3--|---3-----3-----3--|
|---2-----2-----2--|------------------|-----3-----3-----3|-----3-----3-----3|
|-----4-----4-----4|---7-----7-----7--|-5----------------|------------------|
|-5----------------|-----9-----9-----9|------------------|------------------|
|------------------|------------------|------------------|-3----------------|


|-3-----3-----3----|-6-----5-----3----|-1-----1-----1----|-1-----1-----1----|
|---2-----2-----2--|---5-----5-----5--|---3-----3-----3--|---3-----3-----3--|
|-----3-----3-----3|-----6-----6-----6|-----2-----2-----2|-----2-----2-----2|
|------------------|------------------|-0----------------|------------------|
|-4----------------|-7----------------|------------------|------------------|
|------------------|------------------|------------------|------------------|


|-5-----5-----5----|-8-----6-----5----|-3-----3-----3----|-6-----5-------0--|
|------------------|------------------|---3-----3-----3--|---5-----5---8----|
|---2-----2-----2--|------------------|-----3-----3-----3|-----7-----7-----7|
|-----4-----4-----4|---7-----7-----7--|-0----------------|------------------|
|-5----------------|-----9-----9-----9|------------------|------------------|
|------------------|------------------|------------------|-6----------------|


|-1-----1-----1----|-1-----3-----4----|-5-----5-----5----|-5----------------|
|------------------|---1-----2-----3--|---5-----5-----5--|------------------|
|---2-3---2-3---2-3|-----4-----3-----4|-----6-----6-----6|------------------|
|-0----------------|-0-----0-----2----|------------------|------------------|
|------------------|------------------|-0----------------|------------------|
|------------------|------------------|------------------|------------------|