One of the main characters from Final Fantasy 6, this particular moogle's theme song is derived from the FF5 moogle theme. Said themes were composed by Nobuo Uematsu, and the main melody of the former is transcribed below for guitar by trial-and-error.

|-1-0-1---------------------------|
|-------0-1-----------------------|
|-------------1-2-----------------|
|-----------------3-------02020---|
|---------------------2-3-------3-|
|---------------------------------|

|--------------------------------------------------|
|---------6-----5-----3----------------------------|
|.------5---------------5-3-2----------------------|
|.3-5-7------357--357---------5---5-3-1------------|
|------------|||--|||---------------------4---2----|
|------------\|/--\|/------------------------------|
              3    3

|-------------------------------------------------|
|---------6-----5-----3-----------------------2---|
|-------5---------------5-3-2-------------0------.|
|-3-5-7------357--357---------5---5-3-1----------.|
|------------|||--|||-----------------------------|
|------------\|/--\|/-----------------------------|
              3    3

|------------------------------------------------------------|
|-3-2-3-5-3-0---------------------1-0-1-3-1------------------|
|-------------0-------0-------0-2-----------2----------------|
|---------------2-0-2---2-0-2-----------------3-0------------|
|-------------------------------------------------3----------|
|------------------------------------------------------------|

|-----------------------------------------------------------------|
|-3-2-3-5-3-0---------------------4-3-4-6-4---3-4-7-6-7-9-7---6-7-|
|-------------0-------0-------0-2-----------5---------------8-----|
|---------------2-0-2---2-0-2-------------------------------------|
|-----------------------------------------------------------------|
|-----------------------------------------------------------------|

|-----------------------------------------------------------|
|-8---9-9-8-6-5-6-8---10---8--------8---10---8-6-5-6-8------|
|-9--1010-9-7-5-7-9---10---9--------9---10---9-7-5-7-8------|
|-----------------------------------------------------------|
|-----------------------------------------------------------|
|-----------------------------------------------------------|