Everything Musical Tablature Database
Home :: M :: The Misfits :: Last Caress (Bass)

Artist: The Misfits
Album: Static Age
Label: Caroline
Song: Last Caress

Intro
G|-------------|-----------------|
D|*------3--5-*|-----3-----0-----|
A|*-----------*|-----------------|
E|-------------|-----------------|

Verse (I've got something to say...)
G|----------------------------------|
D|*-------------------------3---5--*|
A|*-3-3-3-3-3-3-3-3-3-3-3-3--------*|x4 (x2 2nd and 3rd times)
E|----------------------------------|


G|-----------------------------------------------------------------|
D|-3-3-3-3-3-3-3-3-0-0-0-0-0-0-0-0---------------------------------|
A|---------------------------------3-3-3-3-3-3-3-3-3-3-3-3-3-3-3-3-|
E|-----------------------------------------------------------------|

 
Chorus (Sweet Lovely Death...)


Version 1
G|-----------------------------------------0-0-0-0-2-2-2-2-2-2-2-2-|
D|-3-3-3-3-3-3-3-3-5-5-5-5-5-5-5-5---------------------------------|
A|---------------------------------3-3-3-3-------------------------|
E|-----------------------------------------------------------------|

                                OR
Version 2
G|-----------------------------------------------------------------|
D|-3-3-3-3-3-3-3-3-5-5-5-5-5-5-5-5---------------------------------|
A|---------------------------------3-3-3-3-2-2-2-2-0-0-0-0-0-0-0-0-|
E|-----------------------------------------------------------------|

Both Versions
G|-------------------------------------------|-----------------------------------|
D|-3-3-3-3-3-3-3-3-5-5-5-5-5-5-5-5~~~~*------|*-----------------3-3-3--5--5-5-5-*|
A|-------------------------------------(8\3)-|*-3-3-3-3-3-3-3-3-----------------*| Play until end of song, end on C (3rd Fret A)
E|-------------------------------------------|-----------------------------------|
* last chorus let ring, then slide

Order:
Intro
Verse
Chorus Version 1
Verse
Chorus Version 2
Verse 
Chorus Version 2

Tabbed by me so ask if you want to steal it. :P

Log in or registerto write something here or to contact authors.