Violent J sings this one himself, and laughs during the chorus sung by Shaggy. Shaggy also has a brief interlude where the music stops, noted in the lyrics above by a different font.

I Want My Shit (Jeek Acoustic Version)
----------------------------------------
Song/Lyrics by the Insane Clown Posse
Acoustic Version Arranged by Jeek

~ means let a note ring. Most notes stop almost as soon as they're played.

Verse (Timing's a bit tricky at first, listen to the song)
E |--------------------------|
B |--------------------------|
G |--4~~~~~------------------|
D |--4~~~~~--5-4~------------|
A |--2-0-2~--5-4~---------0--|
E |----------3-2~-0-2-0-3----|

Chorus

E |----------------------------------------------------|
B |----------------------------------------------------|
G |----------------------------------------------------|
D |--99999999777777779---------99999999777777779-------|
A |--99999999777777779---------99999999777777779-------|
E |--77777777555555557---------77777777555555557-------|

E |----------------------------------------------------|
B |----------------------------------------------------|
G |--99999999777777779---------------------------------|
D |--99999999777777779---------99999999777777779-------|
A |--77777777555555557---------99999999777777779-------|
E |----------------------------77777777555555557-------|


"'til I get my shit in this motherfucker I won't ever.."
E |-----------------------------------|
B |-----------------------------------|
G |--7-7-7-7-7-7-7-7-9-9-9-9-9-9-9-9--|
D |--7-7-7-7-7-7-7-7-9-9-9-9-9-9-9-9--|
A |--5-5-5-5-5-5-5-5-7-7-7-7-7-7-7-7--|
E |-----------------------------------|

"DIEEEEEEEEEEEEEEEEEEEEEEEEEEEEEEEEEEEEE"
E |------------------7--|
B |------------------7--|
G |------------------8--|
D |--9-997-779-997-779~~|
A |--9-997-779-997-779~~|
E |--7-775-557-775-557~~|

At one point in the song there's a slide up to 15 on the G string. Don't bother on an acoustic..it's just not the same.

Log in or registerto write something here or to contact authors.